Tuesday, October 2, 2012

Challa - Song - Jab Tak Hai Jaan











purchase guitar from http://jazzelinnguitars.com/buy-guitar-from-us]


Refer:
http://jazzelinnguitars.com/tutorial-for-notes-on-guitar-fretboard to figure out Tabs and notes



The intro riff goes as per actual version:

B --------4------------
G -----3-------5-5-5-
D ---5-----------------

B -------4------------
G --3-5------5-5-5-
D --------------------

B ------------------------------
G -3-5-5s7---3-3---3-------
D -------------------6-----6-5


For best Digital BP Monitors:
For best Digital BP Monitors:
Chords used: Cm Fm A#M D#M G#M GM





Strumming pattern:

1---3--&5&6-7-8&
d---D--udud-D-du



h=hammer
p=pull off
s = slide
b = bend




Strumming pattern:   
(strokes in Bold need be played harder than other strokes.
Similarly strokes in lower case such as d [down] are light strokes and uppercase D are strong getting more emphasis)



------------------------------------------------------------------------------------------------------------

However, to make it easy transpose it one and a half step down .. 
so now chords sequence will be 

Am Dm FM CM GM EM

Check for the variation of chords and strumming pattern and the usage of C minor chord once in the song...

Intro Riff now:


B -------1------------
G -----0------3-3-3-
D ---2-----------------

     Am    

B -------1------------
G --0-2------3-3-3-
D --------------------

     Dm

B ------------------------------
G -0-2-2s4---0-0-----0-------
D -----------------3-----3-2

    GM                            EM







CHORDS:

Opening intro chord Dm (strum 4 times 1&2-3&4-5&6-7&8)  (duD-duD-duD-duD-)
Then comes the above riff, and chords with this riff are
Am....  Dm.... GM..... EM

Dm                           FM...     CM... GM
Challa ki labh daa phirey


Dm                           FM
Challa kee labh daa phirey

CM                           GM
Yaaron main ghar kehda

FM                        EM
Lokan ton puchda phire

Am                        
Challa hansda phire

Dm                           
Challa rounda phire

GM                                    EM
Challa galee galee rulda phire

Am                          
Challe tu sab daa
Dm                          
Challe tera koi nahi

GM                                     EM
Challa galee gali rul da phirey


FM         CM            EM                                     
Challa ki labh daa phirey
Solo:

B. C. D. E F G A B C D   DsE’ E’hF’ DsE’  F’ DhE’  E’hF' D   
E-----------------------------------------------------------------
B----------3--3s5--5h6-3s5--6-3h5---5h6--3-------------------------
G-------245-------------------------------------------------------
D----235----------------------------------------------------------
A-235-------------------------------------------------------------

ACE’B’(Play As A Chord Together Holding 4/7 3/5 2/5 1/7) pA' C’  B’ C’   D’ D’sE'’  C’
E’’ C’     E’’ C’    E’’ C’ A’    E’’ C’ A’    C’ C’hD'
E--7p5-8-7-8-10-10s12--8-----12-8---12-8---12-8------12-8-----8-8h10-
B--5--------------------------------------------10--------10---------
G--5-----------------------------------------------------------------
D--7-----------------------------------------------------------------

     Am       Dm
Rang satrangi de

        CM     GM
Bulbula dee boli
        Dm     FM
Dhup de pairi chale
           Cm         EM
Chawaan di lay lay ke vi
     Am                  Dm    
Hun kaale kaale baadalan vich chand labda
GM                           EM
Goongiyan hawaan diyaan wajaa sun daa
      AM                 Dm  
Yaaro aas paase wasda ye yaar mera
GM              EM
Dikhda ni ohdiyaan khusbuaan
Challa
 Am                Dm ... FM... EM  
Challa ki labh daa phire
 Am                Dm ... FM... EM
Challa ki labh daa phire
Challa ki labh daa phirey







Refer:
to figure out Tabs and notes






<<<<<<<<<<<<<<<<<<<<<<<<<<END>>>>>>>>>>>>>>>>>>>>>>>>>>>>>
<<<<<<<<<<<<<<<<<<<<<<<<<<<<>>>>>>>>>>>>>>>>>>>>>>>>>>>>>>> 





Purchase Guitar online at lowest prices at 


To check Prices of Guitar, visit


To learn guitar, visit 

To figure out Tabs and Notes, refer
http://jazzelinnguitars.com/tutorial-for-notes-on-guitar-fretboard






Learn to play guitar (Bass, rhythm & lead).  beginner to advanced level.. acoustic/electric..

All genres viz rock, metal, pop, blues, bollywood. 
Techniks viz flamenco, slap n pop groove (bass guitar), fingerpicking, scales and chord theory, improvisation, arpeggions, legato, soloing etc.

Avail home tuitions with the benefit of flexible schedules and choice of frequency of class, fast paced learning.. If you miss a class, you can get that rescheduled..

Develop a deep knowledge of chords, scales, modes and arpeggios and build an intuitive improvisational ability.

The courses structured and designed enable an individual to play the Guitar with and learn and understand theory in the least time possible and as fast as possible.

Jazzelinn Guitars calls all aspiring individuals who want to learn to play the Guitar as a Hobby, or Passion, or even as a Career, to join us and try our Efficient and Easy to Learn Guitar Courses.

Our students vary in age groups from 7 Years of age to 58 Years, (although we haven’t put a cap on upper age limit)

Clearly we are the No.1 Choice for learning the Guitar.

If you haven't got a guitar.. u will get assistance in buying the best one for u.. 


Jazzelinn Guitars
GuitarAcademyDelhi@gmail.com

2 comments:

Anonymous said...

Where is the solo part just before "Rang satrangi de" ?

Suchait Sachdeva said...

Here you go buddy... post updated with solo tabs and notes...


Solo:
B. C. D. E F G A B C D DsE’ E’hF’ DsE’ F’ DhE’ E’hF' D
E-----------------------------------------------------------------
B----------3--3s5--5h6-3s5--6-3h5---5h6--3-------------------------
G-------245-------------------------------------------------------
D----235----------------------------------------------------------
A-235-------------------------------------------------------------

ACE’B’(Play As A Chord Together Holding 4/7 3/5 2/5 1/7) pA' C’ B’ C’ D’ D’sE'’ C’
E’’ C’ E’’ C’ E’’ C’ A’ E’’ C’ A’ C’ C’hD'
E--7p5-8-7-8-10-10s12--8-----12-8---12-8---12-8------12-8-----8-8h10-
B--5--------------------------------------------10--------10---------
G--5-----------------------------------------------------------------
D--7-----------------------------------------------------------------

rcd

AkshinRocks (playlist)