Monday, September 3, 2012

Hero - Enrique Tabs, chords & strumming pattern


 

Strumming Pattern: 

1---3-4&-&6-7-8&
D---D-dU-uD-D-du








Intro:
---3-------3-------3-------3-------3-------3-------3--------------------------
-----3-------3-------3-------3-------3-------3-------3------------------------
-------0-------0-------0-------0-------0-------0-------2----------------------
-------------------------------------------------0-------0--------------------
---------------------------------3-------3------------------------------------
-3-------3-------0-------0----------------------------------------------------
 
Verse 1:                                                                     
---3-------3-------3-------3-------3-------3-------3-------3------------------
-----3-------3-------3-------3-------3-------3-------3-------3----------------
-------0-------0-------0-------0-------0-------0-------2-------2--------------
-------------------------------------------------0-------0--------------------
---------------------------------3-------3------------------------------------
-3-------3-------0-------0----------------------------------------------------
                                                                              
 
---3-------3-------3-------3-------3-------3-------3-------3------------------
-----3-------3-------3-------3-------3-------3-------3-------3----------------
-------0-------0-------0-------0-------0-------2-------0----------------------
-----------------------------------------0------------------------------------
---------------------------------3--------------------------------------------
-3-------3-------0-------0-----------------------3-------3--------------------
                                                   
 
 
Chorus:
 
G      D              C      G       D              C      
I can be your Hero Baby..... I can kiss away the pain......
 
G          D              C    G         D               C
I will stand by you forever....You can take...my breath away...
 
 
 
Verse 2:
---3-------3-------3-------3-------3-------3-------3-------3------------------
-----3-------3-------3-------3-------3-------3-------3-------3----------------
-------0-------0-------0-------0-------0-------0-------2-------2--------------
-------------------------------------------------0-------0--------------------
---------------------------------3-------3------------------------------------
-3-------3-------0-------0----------------------------------------------------
                                                                              
 
---3-------3-------3-------3-------3-------3-------3-------3------------------
-----3-------3-------3-------3-------3-------3-------3-------3----------------
-------0-------0-------0-------0-------0-------2-------0----------------------
-----------------------------------------0------------------------------------
---------------------------------3--------------------------------------------
-3-------3-------0-------0-----------------------3-------3--------------------
   
 
Chorus:
                                                                           
G      D              C      G       D              C      
I can be your Hero Baby..... I can kiss away the pain......
 
G          D              C    G         D               C
I will stand by you forever....You can take...my breath away...
 
 
 
Solo:
 
------------------------------------------------------------------------------
--------------------------7------------7-8-7----------------------------------
------------------5/7-7-7---7-------7h9------7-------------------------7------
-5-5-5-7-7/9-----------------------------------7/9-7----------9p7----9--------
------------------------------------------------------------------10----------
------------------------------------------------------------------------------
                                                                              
 
 
 
Verse 3:
 
---3-------3-------3-------3-------3-------3-------3-------3------------------
-----3-------3-------3-------3-------3-------3-------3-------3----------------
-------0-------0-------0-------0-------0-------0-------2-------2--------------
-------------------------------------------------0-------0--------------------
---------------------------------3-------3------------------------------------
-3-------3-------0-------0----------------------------------------------------
                                                                              
 
---3-------3-------3-------3-------3-------3-------3-------3------------------
-----3-------3-------3-------3-------3-------3-------3-------3----------------
-------0-------0-------0-------0-------0-------2-------0----------------------
-----------------------------------------0------------------------------------
---------------------------------3--------------------------------------------
-3-------3-------0-------0-----------------------3-------3--------------------
 
 

No comments:

rcd

AkshinRocks (playlist)